PDA

View Full Version : Akordi i Tablature



Dj.Vesna
16.09.2012, 09:02
Aerodrom


24 sata

Intro: F Am C

F Am C
Priznajem, grijesio sam bas kao i svi
F Am C
Znam da sam prepun mana, ali vjeruj mi
Dm Am
Moja ljubav oduvijek je bila
Bb Bbm C
Cista i tebe dostojna.

Zbog nje sam bio spreman se pokoriti
I protiv razuma se svoga boriti
I napustit svoje staro drustvo
Tebi je bilo svejedno.

Ref:
F Am Bb C
Ti nikad nisi saznala
F Am Bb C
Koliko mi je do tebe stalo
Dm Am
Dvadeset i cetri sata dnevno
Bb Bbm C
S tobom je bilo premalo

Solo: F Am C 2x Dm Am Bb Bbm C

Ti uvijek imas pravo se potuziti
Mozda su ti drugi mogli vise pruziti
Ali, vjeruj, kunem ti se
Nikad nisam za cijenu pitao.

Koliko sam puta te na kisi cekao
Kasnila si sate, nisam nista rekao
Za tebe sam htio sve na svijetu
Tebi je bilo svejedno.

Ti nikad nisi saznala
Koliko mi je do tebe stalo
Dvadeset i cetri sata dnevno
S tobom je bilo premalo.


UVOD:
F Am/E C7
-------------------------------|-----------------------------|
---------10-------------10-----|-----------8----8h10h8-------|
-------------10-------------9--|--------9--------------9-----|
-----10-------------10---------|-----8--------------------10-|
--8--------------7-------------|-----------------------------|
-------------------------------|--8--------------------------|

-------------------------------|-----------------------------|
---------10-------------10-----|-----------8----8h10-8h10-8--|
-------------10-------------9--|--------9-------9----9-------|
-----10-------------10---------|-----8-----------------------|
--8--------------7-------------|-----------------------------|
-------------------------------|--8--------------------------|

-------------------------------|-----------------------------|
---------10-------------10-----|-----------8----------8------|
-------------10-------------9--|--------9----------9------9--|
-----10-------------10---------|-----8----------8------------|
--8--------------7-------------|-----------------------------|
-------------------------------|--8--------------------------|

-------------------------------|-----------------------------|
---------10-------------10-----|-----------8-----------------|
-------------10-------------9--|--------9--------------------|
-----10-------------10---------|-----8-----------------------|
--8--------------7-------------|-----------------------------|
-------------------------------|--8--------------------------|

Dj.Vesna
16.09.2012, 09:04
Aerodrom - Bistra voda

Intro: |D |G | x6
|D | x2
|D |G | x2
|A |

Riff 1:
Em/F# Em Em/D Em/C# Em
|-----------------|------------------| akusticna gitara prebire
|-----------------|------------------| za to vrijeme u ovom stilu:
|-----------------|------------------| H|-----3-----3-----3-
|-4-----2-----0---|-------------2----| G|---0-----0-----0---
|-----------------|-------4----------| D|(4)---(2)---(0)---- itd.
|-----------------|------------------|

D A
Da pospremim u srcu lom
G D
Mrka planina dala mi dom.

(D) A
Jezera sva, ne znam im broj
G D A
U nijednom odraz ja ne vidim svoj

Refren:
D G
Bistra vodo, tko te je zamutio
riff1 D
Neka zna da me je naljutio
G
Bistra vodo, niko ne vidi ti kraj
riff1 D
Primi me, primi u svoj zagrljaj.

(D) A
Leptir na moj spusta se dlan
G D A
Tko od nas dvoje sanja taj san?

Refren

Solo:
|G |D |x2

Riff 2: x2
G
|-----------------|------------------| akusticna gitara prebire
|-----------------|------------------| za to vrijeme u stilu:
|-----------------|------------------| H|-----3-----3-----3-
|-0---------------|------------------| G|---0-----0-----0---
|-------4----2----|------0-----------| D|(0)---------------- itd.
|-----------------|-----------3----2-| A|------(4)---(2)----


|D |G |x2
|A | riff1

Jezera sva...

Refren

riff 1
Bistra vodo! x3


Em riff je ustvari najbolje svirati kao Em pa Em7 020000. Samo se svira
bas melodija preko toga. A moze i Em9 Em Em7 Em6 Em.

Dj.Vesna
16.09.2012, 09:05
Aerodrom - Digni me visoko

C G C
uzmi me sa sobom i odvedi me, i odvedi me i odvedi me
G C F-G
digni me visoko da ti ispricam svoje snove sve, svoje snove sve
C G C
u zemlju preko mora gdje su djevojke...
C G C
koje nikad nikom nisu rekle ne...

Em A Em A
al’ ja ipak nisam luda, koja vjeruje u cuda
Em A Dm G
sto se kriju iza mora i gora dalekih

spusti me na zemlju ali oprezno...
hrabar sam al’ necu izazivat zlo...
jer mozda jednog dana ipak uspijem...
samo ako prije se ne napijem...

al’ ja ipak nisam luda...

/ solo /

al’ ja ipak nisam luda...
la-la-la al’ ja ipak nisam luda...

Dj.Vesna
16.09.2012, 09:06
Aerodrom - Kad misli mi vrludaju

A5 G D F/A
U kaficu stojim, hladnu coca-colu pijem
C G F C5 G5/H
Prolaznike brojim

Zrak je vruc i tezak, al' ne gubim nadu
Dobro je dok sam u hladu.

Refren:
F C F C
Jer ja ne marim za sve te stvari
F C Bb G
Meni je najbolje kad misli mi vrludaju (2x)

Svi se zure nekud, trce jer umjesto srca
Kucaju im ure
Za to vrijeme ja vec ko zna kuda plovim
Istu stvar po dzepu lovim.

Ref

Koristeni akordi:
EADGBE
------
G 320033
D xx0232
F/A x0321x
G5/H x25xxx

Dj.Vesna
16.09.2012, 09:07
Aerodrom - Laz

A Am
Laz, stoljecima caruje
E F#
Svoje sluge daruje bogato i besramno
A Am
Laz, zmija je u njedrima
E F#
Plovi punim jedrima, vjesto kamuflirana.

E G#m
Istina je glupi nacin da navuces nevolju
C#
Ne izazivaj zlo
A Am E
Svako u njoj vidi samo iskrivljeno zrcalo
E G#m
Da li ti je jako stalo da pred sobom budes cist
C#
Kakva je draz
A Am E
Ljudi puno vise vole dobro odmjerenu laz.

Laz, stoljecima caruje
Svoje sluge daruje bogato i besramno
Laz, zmija je u njedrima
Plovi punim jedrima, vjesto kamuflirana.

Reci ono sve sto mislis, zadovolji krvnika
Zaradujem
Bezbolnom i brzom smrcu, istinom nagradujem
Prica kaze, jednog dana svi ce biti jednaki
Svako imat ce sve
Samo treba biti strpljiv i vjerovat u drugove.

Dj.Vesna
16.09.2012, 09:08
Aerodrom - Ljubav nije knjiga

Glavna |H |A |E | G|
tema: |H |A |E |E | x4 (kroz cijelu pjesmu osim refrena)


H A E G H A E
Kapci od olova, tonem u prvi san
Al izgleda u krivo vrijeme, tebi se ide van

Vristis po stanu da te ne razumijem
A ja ne znam dal' da spavam ili da te u.ijem


Refren:
F# H F#
Duso, prestani me muciti
C#m/E E F# H F#
Znas da ljubav nije kao knjiga koja moze se nauciti
C#m/E E
Ona uvijek nosi nesto novo
F# H F# C#m G#m H
Poput vjetra koji nikada niko nije uspio uloviti.

Gl. tema x2

U tvojim ocima trza se noc
Tek sa leptirom zore ponovo ces doc'

Ruz ti je na usnama, ne smijem te ljubiti
Plasis me kad sve naucim, da cu te izgubiti.

REFREN

Solo (preko gl.teme x6)

REFREN x4

Dj.Vesna
16.09.2012, 09:09
Aerodrom - Metar vina

C F Dm G C
Popio sam nocas metar vina
F Dm G C
Kaze doktor da mi fali vitamina
F Dm G C
Smotao sam poslije jednu dobru pljugu
F Dm G C
Bas je legla na tu silnu cugu.

C
Pa kaze ...
F Dm G C
Hu hu, hu hu hu hu hu.

Sto je fino kad ti vece krene
Jos da mi je samo dobre zene
Sto je fino puno kad ti vece krene
Jos da mi je samo dobre zene.

D G Em A D
Popio sam nocas metar vina
G Em A D
Kaze doktor da mi fali vitamina
G Em A D
Smotao sam poslije jednu dobru pljugu
G Em A D
Bas je legla na tu silnu cugu.

Dj.Vesna
16.09.2012, 09:11
Aerodrom - Nebo ce uz tebe stati

Intro:

/Cijeli bend:/ (2x)
|:C G |C G |D# |F

/Klavijature riff:/ (2x)
|:G |F |C |G

/Ukljucuje se glavni riff:/ (2 x 8 taktova)

G F
E|-----------------------|----3-------3--3-------|
B|-----------------------|----3-------3--3-------|
G|o----------------------|----0-------0--0-------|
D|o----------------------|--------x--------------|
A|-----------------------|-----------------------|
E|--1--3----3----1--3----|-----------------------|

C G
E|-----------------------|-----------------------|
B|-----------------------|-----------------------|
G|-----------------------|-----------------------|
D|-----------------------|----3---3--2--0--------|
A|-----------------------|-----------------3--0--|
E|--1--3----3----1--3----|-----------------------|

F
E|-----------------------|----3-------3--3-------|
B|-----------------------|----3-------3--3-------|
G|-----------------------|----0-------0--0-------|
D|-----------------------|--------x--------------|
A|-----------------------|-----------------------|
E|--1--3----3----1--3----|-----------------------|

C G
E|-----------------------|------------------------|
B|-----------------------|------------------------|
G|-----------------------|-----------------------o|
D|-----------------------|---2--3--2--3--2--0----o|
A|-----------------------|---------------------1--|
E|--1--3----3----1--3----|------------------------|


/Solo klavijature/ (2 x 4 takta)

G F
Skoro da je tako
C G
Otkako se rodis
Uvijek ne`ko provocira
Zivot koji vodis

Bolje da te mrze
Nego da te zale
Vise vjeruj kada pljuju
Nego kada hvale
F C G
Nego kada hvale


Refren:
C G C G
Korak nek ti bude cvrst
D# F
Nebo ce uz tebe stati
I pokazi srednji prst
Losem glasu sto te prati


/Solo klavijature/ (2 x 4 takta)


Ulica te zove
Ulica te uci
Da za ono sto ti treba
Morat ces se tuci

Pogledaj svog brata
Samog sebe trazi
Uspavan u svijetu koji
Fura se na lazi
Fura se na lazi

Refren


/Glavni riff/ (1 x 8 taktova)

/Klavijature solo/ (8 x 4 takta)

/Glavni riff/ (1 x 8 taktova)

/Cijeli bend/ (2 x 4 takta)


Ulica te zove...

Refren

/Gitara riff/ (2 x 8 taktova) + G - zadnji takt.



Celo vrijeme se svira |G |F |C |G | osim u intru i refrenu.

Dj.Vesna
16.09.2012, 09:12
Aerodrom - Obicna ljubavna pjesma

Intro - Na lijepom plavom Dunavu

Riffovi u verse se sviraju sa heavy palm mute, ovo bi bio neki osnovni uzorak
radi orijentacije, bitna je ritam s naglasenim i nenaglasenim notama.

A riff:
A5 A5+(no3) A6(no3no5) A5+(no3)
|---------------------------------|---------------------------------|
|---------------------------------|---------------------------------|
|---------------------------------|---------------------------------|
|-2-2-2-2-2-2-2-2-3-3-3-3-3-3-3-3-|-4-4-4-4-4-4-4-4-3-3-3-3-3-3-3-3-|
|-0---------------0---------------|-0---------------0---------------|
|---------------------------------|---------------------------------|

D riff:
D5 D5+(no3) D6(no3no5) D5+(no3)
|---------------------------------|---------------------------------|
|---------------------------------|---------------------------------|
|-2-2-2-2-2-2-2-2-3-3-3-3-3-3-3-3-|-4-4-4-4-4-4-4-4-3-3-3-3-3-3-3-3-|
|-0---------------0-------------0-|-0---------------0---------------|
|---------------------------------|---------------------------------|
|---------------------------------|---------------------------------|


A riff
Ako zelis si, zamisli da pjevam ti o necem drugom
O necem sto si vec odavno mozda htjela cuti
D riff
O ljubavi sto traje cijeli zivot, o vjernosti, o braku i o sreci
A riff
Odnosu gdje nikad nista ne pokvari netko treci.

Ja nikad nisam znao pisat ljubavne romane
Jer draze mi je ono sto u dvije-tri rijeci stane
I zato me ne gledaj tako i ne zijevaj
Znam da ti je dosadna, al' ipak sa mnom pjevaj.

Refren:
Am G Dm Em
Obicnu ljubavnu pjesmu
obicnu ljubavnu stvar

|---------------------|
|---------------------|
|-----0-2-------------|
|-0h2-----------------|
|-----------0--0------|
|---------------------|

Sto kraja nema, a ni pocetka
A ja ja ja ja ja jaaaa.
A ja ja ja ja ja jaaaa.

Ja znam da ova pjesma nece nikada promijenit svijet
I isto tako znam da od nje ljudi nece zivjet bolje
Al' mozda ipak nekom bit ce draga
I sigurno zabraniti je nitko nece
Jer u njoj nema nista sto na neku drugu stranu skrece

Odavno vec nestali su nasi ulicni heroji
Sva`ko gleda svoje, sva`ko tjera svoje, svak se boji
Zato me ne gledaj tako i ne zijevaj
Znam da ti je dosadna, al' ipak sa mnom pjevaj.

Refren

Ja nikad nisam znao ...

Refren ...


Am 577555
G 355433
Dm x5776x
Em x7998x

Dj.Vesna
16.09.2012, 09:14
Aerodrom - Stavi pravu stvar na pravo mjesto

E C#7
Sve sto ti se svidja mislis da i smijes
A H E H
osjecaje nikada ne krijes
E C#7
U zivotu nista ne prepustas sreci
A H E H
zena si od akcije i znas mi reci

E H C#m A
Stavi pravu stvar na pravo mjesto
E H C#m A
Stavi pravu stvar na pravo mjesto i cini to cesto
E H C#m A
Stavi pravu stvar na pravo mjesto

Prezires tradiciju, mrzis biti dama
sva pica sto popijes placas sama
U zivotu nista ne prepustas sreci
zena si od akcije i znas mi reci

Stavi pravu stvar na pravo mjesto
Stavi pravu stvar na pravo mjesto i cini to cesto

...solo...

Stavi pravu stvar...

Dj.Vesna
16.09.2012, 09:16
Yu grupa


Crni leptir
uvod:
G Am G Em
e|------------------------------------------------------
H|-5-8-10-10->12-12-10-8-8->10-10-8-7-7->8-7-8-7-3-3/5--
G|------------------------------------------------------
D|------------------------------------------------------
A|------------------------------------------------------
E|------------------------------------------------------

D G D Em
e|-------------------------------------
H|-3-5/7-7-5-7-7/8-7->3-3-3/5-(5)-3-5--
G|-------------------------------------
D|-------------------------------------
A|-------------------------------------
E|-------------------------------------

G Am G Em
e|------------------------------------------------------
H|-5-8-10-10->12-12-10-8-8->10-10-8-7-7->8-7-8-7--------
G|-----------------------------------------------7-7/9--
D|------------------------------------------------------
A|------------------------------------------------------
E|------------------------------------------------------

D G D Em
e|------------------------------------------
H|-3-5/7-5/7\5-3-7/8-7/8-7/8\7-3-3_5-5-3-5--
G|------------------------------------------
D|------------------------------------------
A|------------------------------------------
E|------------------------------------------

Em D Em
Ulicna svetiljka, baca svetlost u krug,
Em D Em
dok crni leptiri lete pravo na nju,

Em C Em D A
ali ne znaju da tu je kraj,
Em C G D Em
da ih ubija njene svetlosti sjaj

ali ne znaju da tu je kraj,
da ih ubija njene svetlosti sjaj

uvodni solo:

Nekad sam leteo leptir bio i ja,
svetlost me mamila krila mi sprzila,

crni leptiru ,bezi u noc,
jutro savekaj svetlost ce doc'

crni leptiru ,bezi u noc,
jutro savekaj svetlost ce doc'

Dj.Vesna
16.09.2012, 09:17
Yu grupa


Dunav
C Fmaj7 C G

C Fmaj7
Dunave, moj dunave
C Fmaj7
kakve mi vesti vode donose
C Fmaj7
jesam li, jesam li jos uvek
B F C G
sam bez ikoga, pusta obala

C Fmaj7
Dunave, moj dunave
C Fmaj7
pratis li moje cudne puteve
C Fmaj7
tu gde ja gledam jato ptica
B F C G F C G F C G
nema obala, nema nikoga, samo jaaaaa aaaaaa

C Fmaj7
Dunave, moj dunave
C Fmaj7
kakve mi vesti vode donose
C Fmaj7
jesam li, jesam li jos uvek
B F C G F C G F C G
sam bez ikoga, pusta obala napustenaaaaaa aaaaaa


G C
Nek nas sada ptice povedu
G F C
svojim letom, pesmom uzdignu
G
srebri nebo iznad nas
Dm
orlov tuzan srecem glas
B G
ljubav to je sve, ljubovat je sve


Nek nas sada ptice povedu
svojim letom, pesmom uzdignu
srebri nebo iznad nas
orlov tuzan srecem glas
ljubav to je sve, ljubovat je sve

Dj.Vesna
16.09.2012, 09:18
Yu grupa


Odlazim
Am G D Am 4x

Am G D Am
Probudi me sunce kroz prozore prljave, musave
Am G D Am
Oblacim se zurno, kafu pijem, nestajem
Am G D Am
Trljam oci sanjive da mi ne bi zaspale
Am G D Am
Vrata guram nervozno, ptice gledam slobodne

ref:
C F
Odlazim dok jos drugi spavaju
C F D
Koraci plocnikom odzvanjaju

Osvrcem se okolo, gledam puste ulice
Krecem stazom poznatom, pustam misli slobodne

B F C
Na obali zacaran ja sanjarim
B F C D
Kao ladje velike tad otplovim

Dj.Vesna
16.09.2012, 09:19
Yu grupa


Od zlata jabuka
Hm A Em A
cudne se stvari s nama zbivaju
Hm A Em G A
oci ti silne lazi skrivaju
Hm A Em A
za druge mi smo vrlo sretan par
Hm A Em Hm
gluma i daje svemu pravu car

ti imas neku vrlo cudno moc
zbog tebe ja ne spavam celu noc
cekam trentak kad ces opet doci
da me izlude tvoje plave oci

D D4 D/A D4
ti si daljina sto me privlaci
D A Em G
carobnjak sto mi razum pomraci
D D4 D/A D4
kada si sa mnom ja sam opcinjen
D A Em Hm
od jedne reci ja se opijem

A Hm Em G
moja si od zlata jabuka
A Hm Em G
moja si o da
A Hm Em G
moja si od zlata jabuka
Am Hm Em G
moja si
A Hm Em G
moja si od zlata jabuka
A Hm Em G
moja si o da
A Hm Em G
moja si od zlata jabuka
Am Hm Em G A
moja si


ti si daljina sto me privlaci
carobnjak sto mi razum pomraci
kada si sa mnom ja sam opcinjen
od jedne reci ja se opijem

moja si od zlata jabuka
moja si o da
moja si od zlata jabuka
moja si

Dj.Vesna
04.11.2012, 10:16
Sivi Dom - muzika iz filma



Sve što želim u ovom trenutku

Am (A A7) Dm
Sve što želim u ovom trenutku,
G G7 C
idi, idi iz života moga,
Am (A) Dm
srce mi je izgorelo moje,
E E7 Am
a duša je ostala bez svoga

Veselo mi s' tobom nekad beše,
al kad je sa neba zvezda pala,
sad mi osta samo jedna slika,
što mi tvoja sestra jednom dala.

F G7 C
Ne, neću plakati,
srce mi je puno radosti,
F G7 C A7
ne, neću plakati,
Dm E E7 Am
srce mi je puno radosti.

Dj.Vesna
04.11.2012, 10:22
Marilyn Manson


Sweet dreams

Verse 1 (Guitar 1)
e--------------------------------------------------------
B--------------------------------------------------------
G--------------------------------------------------------
D-------5-----6-----5------------------------------------
A-3--3-----3-----3-----3----------6/8----------5/6-------
E--------------------------4--4---------3--3-------------
("Sweet dreams are made of these...")

(or
E--------------------------------------------------------
B--------------------------------------------------------
G-------0-----1-----0------------------------------------
D-----------------------------------0--3---------0--1----
A-3--3-----3-----3-----3---------------------------------
E--------------------------4--4------------3--3----------)

Pre-Chorus 1 (Guitar 2)
e--------------------------------------------------------
B--------------------------------------------------------
G-5------------5m----------------------------------------
D-5------------5m------------5^--------------------------
A-3------------3m-------6----5^--------------------------
E----------------------------3^--------------------------

Chorus
e--------------------------------------------------------
B--------------------------------------------------------
G---------------5----------------------------------------
D-6--------5-5--5-(x8)--6-------5---6-------5------------
A-6-(x14)--5-5--3-------6-(x7)--5---6-(x8)--5-(x7)-------
E-4--------3-3----------4-------3---4-------3------------

*Verse 2
e--------------------------------------------------------
B--------------------------------------------------------
G--------------------------------------------------------
D-------5-----6-----5------------------------------------
A-3--3-----3-----3-----3---------6/8----------5-6--------
E--------------------------4--4--------3--3--------------
*Verse 2 is almost the same as verse one except the
last note is hit instead of slid to.

Pre-Chorus 2 (Guitar 2, palm muted)
e--------------------------------------------------------
B--------------------------------------------------------
G-5---------------5--------------------------------------
D-5-----6---5-----5-----6---5----------------------------
A-3-----6---5-----3-----6---5----------------------------
E-------4---3-----------4---3----------------------------
("Some of them want to use you...")

Solo 1
e--------------------------------------------------------
B---------3^----------3^----------3^----------6^---------
G-5--3-5------5--3-5------5--3-5------5--3-5-------------
D--------------------------------------------------------
A--------------------------------------------------------
E--------------------------------------------------------

(continued)
e--------------------------------------------------------
B---------3^--------------3^-----------------------------
G-5--3-5------5-5p3p0--5---------------------------------
D--------------------------------------------------------
A--------------------------------------------------------
E--------------------------------------------------------

Bridge (palm muted) end on
e----------------------------------|---------------------
B----------------------------------|---------------------
G-5-----------5-----------5--------|---------------------
D-5-----6-----5-----6-----5-----6--|-6--6--6-------------
A-3-----6-----3-----6-----3-----6--|-6--6--6-------------
E-------4-----------4-----------4--|-4--4--4-------------
("Moving on...")

Solo 2
e--------11----------------------------------------------
B-11--13-----11--13-11-----------------------------------
G----------------------11^-------------------------------
D----------------------------10--8--10-----------10-10-10
A---------------------------------------9^-9^-9^---------
E--------------------------------------------------------

(continued)
e-------------------------------------------11--13-14^---
B---------------------------------11-13--11------------13
G----------------------------11^-------------------------
D-10m-13m----8--10-12h13^-12-----------------------------
A---------8^---------------------------------------------
E--------------------------------------------------------

Solo 3
e--------------------------------------------------------
B--------3^-3----------6^----------3^--------------------
G-5--3-5-------5--3-5------5--3-5------5--3-5--5---------
D--------------------------------------------------------
A--------------------------------------------------------
E--------------------------------------------------------

(continued)
e----------------10-11^-------------14^------------10-11^
B-13--13p11--13----------13--11-13-------13--11-13-------
G--------------------------------------------------------
D--------------------------------------------------------
A--------------------------------------------------------
E--------------------------------------------------------

(continued)
e----------------10-11^---14^----------------------------
B-13--13p11--13------------------------3^----------------
G--------------------------------------------------------
D--------------------------------------------------------
A--------------------------------------------------------
E--------------------------------------------------------


Verse 1
Verse 1, Pre-Chorus 1
Chorus
Verse 1 (with wah)
Verse 2
Verse 2, Pre-Chorus 2
Chorus, Solo 1
Bridge
Verse 1, Solo 2
Verse 2, Pre-Chorus 2
Chorus, Solo 3

Dj.Vesna
04.11.2012, 10:26
Metallica


Enter Sandman

[intro]
-------------------------------------------------
-------------------------------------------------
------------------------------------------------- repeat 4 times
---------5----------------------5----------------
------7--------------7-------7--------------7----
---0--------6--5----------0--------6--5----------

[destortion]

E5 / / F5 E5 / / F5 E5 / / F5 repeat several times

E5 / / F5 E5 / / A#5 E5 / / F5 repeat several times


E5 / / A#5 A5 E5 / / A#5 A5

E5 / / A#5 A5 G5 E! F#5 E! F#5 G5 F#5

Note : E! is just an open E played on the low E string
or you can play it like this

---3--0--2--0--2--3--2--0---------


[end intro]
[couplet]

E5 / / / / / / F5 E5 / / / / / / F5
E5 / / / / / / G5 E! F#5 E! F#5 G5 F#5

E5 / / / / / / F5 E5 / / / / / / F5
E5 / / / / / / G5 E! F#5 E! F#5 G5 F#5


-------------------------------------------------
-------------------------------------------------
---------2----------------------2----------------
------4--------------4-------4-------------4-----
------------3--2-------------------3--2----------
---2----------------------2----------------------


-------------------------------------------------
-------------------------------------------------
---------2---------------------------------------
------4--------------4---------------------------
------------3--2---------------------------------
---2--------------------------0------------------

-------------------------------------------------
-------------------------------------------------
---------2---------------------------------------
------4--------------4---------------------------
------------3--2---------------------------------
---2--------------------------0------------------

-------------------------------------------------
-------------------------------------------------
-------------------------------------------------
---5-----4-----4--5--4--2------------------------
---5-----4-----4--5--4--2------------------------
---3--0--2--0--2--3--2--0------------------------

E5 / / A#5 A5 E5 / / A#5 A5

E5 / / A#5 A5 G5 E! F#5 E! F#5 G5 F#5

E5 / / A#5 A5 E5 / / A#5 A5

E5 / / A#5 A5 G5 E! F#5 E! F#5 G5 F#5
^^^^^^^^^^^^^^^^^^^^^^^

Solo while playing ^^^^ :

------------------------------------B--15S\\\------
-12----------------P--------------14B--15S\\\------
-12--------12-14-14-12----12-14---14---------------
--------14-------------14--------------------------
---------------------------------------------------
---------------------------------------------------

note : P := 14 pull off 12
B := use your tremelo to bend them both slowly up
S := slowly slide both down.

I hope I was a little helpful.

-------------

Repost - credit to original tablaturers :)

###### NetTab: "Enter Sandman" by Metallica #####


Intro: (Play 12 times)
======

1|---------------------------------------------------------------------------
2|---------------------------------------------------------------------------
3|---------------------------------------------------------------------------
4|------------5--------------------------------------------------------------
5|--------7---------------7--------------------------------------------------
6|----0-----------6---5------------------------------------------------------


Rhythm Fill 1:
==============

E5

PM------------------| sl PM----------------------| sl

1|---------------------------------------------------------------------------
2|---------------------------------------------------------------------------
3|---------------------------------------------------------------------------
4|---------------------------------------------------------------------------
5|--2---------------------------/7------------------------------/7-----------
6|--0---0---0---0---0---0---0--------0---0---0---0---0---0---0---------------

|-------------3x------------|



F5 E5 *F5 E5

PM--| PM------| P PM--| PM--| P

1|---------------------------------------------------------------------------
2|---------------------------------------------------------------------------
3|---------------------------------------------------------------------------
4|---------------------------------------------------------------------------
5|----------7------------------3\2-------------7-------------------3\2-------
6|--0---0------6---0---0---0---1\0-----0---0-------6---5---0---0---1\0-------

|-------------4x-------------| |--------------8x-------------|

When playing the F5-E5 pulloffs, the E5 is not strummed.
* Skip the F5-E5 pulloff on the 8th repetition.


Rhythm Fill 2:
==============

E5 G5 E5 G5 E5 F#5 G5 F#5

sl V PM------------------|

1|---------------------------------------------------------------------------
2|---------------------------------------------------------------------------
3|---------------------------------------------------------------------------
4|---------------------------------------------------------------------------
5|--2---2----/7--------------5-------5-------4---5---4-----------------------
6|--0---0---------6---5------3---0---3---0---2---3---2-----------------------

|-------3x--------|

(Repeat Rhythm Fill 2 once)

Dj.Vesna
04.11.2012, 10:29
-nastavak


Enter Sandman



Rhythm Fill 3:
==============

E5 F5 E5 F5 E5

PM------------------| P PM-----------------------| P

1|---------------------------------------------------------------------------
2|---------------------------------------------------------------------------
3|---------------------------------------------------------------------------
4|---------------------------------------------------------------------------
5|--2----------------------------3\2-------------------------------3\2-------
6|--0---0---0---0---0---0---0----1\0---0---0---0---0---0---0---0---1\0-------



E5 G5 E5 G5 E5 F#5 G5 F#5


PM----------------------| PM-----------|

1|---------------------------------------------------------------------------
2|---------------------------------------------------------------------------
3|---------------------------------------------------------------------------
4|---------------------------------------------------------------------------
5|---------------------------------5-------5-------4---5---4-----------------
6|--0---0---0---0---0---0---0------3---0---3---0---2---3---2-----------------


Say your prayers, little one
Don't forget, my son
To include everyone

(Repeat Rhythm Fill 3 once)

Tuck you in, warm within
Keep you free from sin
Till the sandman comes



Bridge:
=======

F#5 E5 F5 F#5

PM--------------------------|

1|---------------------|-----------------------------------------------------
2|---------------------|-----------------------------------------------------
3|---------2-----------|-----------------------------------------------------
4|-----4---------------|-----------------------------------------------------
5|-------------3---2---|---4---4---4---4---4---2---3---4---------------------
6|--2------------------|---2---2---2---2---2---0---1---2---------------------

|------3x------|


Sleep with one eye open
Gripping your pillow tight



Chorus Fill:
============

F#5 C5 B5 F#5 C5 B5 F#5 C5 B5 E5

PM-----------|

1|---------------------------------------------------------------------------
2|---------------------------------------------------------------------------
3|----------------------------------------------------------------2----------
4|------5---4---------5---4---------5---4---------5---2---5---2-------2------
5|--4---3---2-----4---3---2-----4---3---2----2-------------------------------
6|--2-------------2-------------2------------0-------------------------------


Exit light
Enter night



F#5 C5 B5 E5 G5 F5 G5

PM----------| PM----------|

1|---------------------------------------------------------------------------
2|---------------------------------------------------------------------------
3|------------------------------------2--------------------------------------
4|------5---4---------5---2---5---2-------2----------------------------------
5|--4---3---2-----2----------------------------5-------5-------4---5---5-----
6|--2-------------0----------------------------3---0---3---0---2---3---3-----


Take my hand
We're off to never never land

(Repeat Rhythm Fill 2 twice)

Something's wrong, shut the light
Heavy thoughts tonight
And they aren't of Snow White
Dreams of War, dreams of lies
Dreams of dragon's fire
And of things that will bite, yeah!

(Repeat Bridge)

Sleep with one eye open
Gripping you pillow tight

(Repeat Chorus Fill)

Exit light
Enter night
Take my hand
Off to never-never land

Solo

w/ wah

|--------------------------|---------------------------------|
|-15-15-15-12----12--------|------12-12----15b17-15b17-(15)\-|
|-------------14-----14b16-|-(14)-------14-------------------|
|--------------------------|---------------------------------|
|--------------------------|---------------------------------|
|--------------------------|---------------------------------|


|-------------------------------------------------|
|-------------------------------------------------|
|-12/14-14-14-14\12-12-12-12/14-14-14-14\12-12-12-|
|-------------------------------------------------|
|-------------------------------------------------|
|-------------------------------------------------|


|-----------------------------------------|
|-----------------------------------------|
|-14p12-----------------------------------|
|-------14--14p12-------------------------|
|-----------------14--14p12\10------------|
|------------------------------12-~-(12)\-|


|-------12-12-12-------12-12-12-------12-12-12-------12-12-12-|
|-15b17----------15b17----------15b17----------15b17----------|
|-------------------------------------------------------------|
|-------------------------------------------------------------|
|-------------------------------------------------------------|
|-------------------------------------------------------------|


|-------12-12-12h15p12-12h15p12-12h15p12-12-15-12-12-14-14-|
|-15b17----------------------------------------------------|
|----------------------------------------------------------|
|----------------------------------------------------------|
|----------------------------------------------------------|
|----------------------------------------------------------|


|-17p14----17p14----17p14-19p15----19p15----19p15-|
|-------15-------15-------------17-------17-------|
|-------------------------------------------------|
|-------------------------------------------------|
|-------------------------------------------------|
|-------------------------------------------------|


|-21p17----21p17----21p17----22b24-(22)\------|-----------------|
|-------17-------17-------17-------------9b10-|-(9)---9b10---9--|
|----------------------------------------9b11-|-(9)---9b11---9--|
|---------------------------------------------|-----------------|
|---------------------------------------------|-----------------|
|---------------------------------------------|-----------------|


|-------------------------------|----------------------------------|
|-9b10--9b10-----------------10-|-(10)----10-8-7---8\7---7---------|
|-9b11--9b11--7--9--------7-----|----------------9-----9---9-7---7-|
|--------------------7h9--------|------------------------------9---|
|-------------------------------|----------------------------------|
|-------------------------------|----------------------------------|


|-----------------------------|-----------------------------------|
|-----------------------------|-----------------------------------|
|-9p7-------------------------|-16b18-14-----14-16b18--14------14-|
|-----9p7---7-9-7-------------|----------16----------------16-----|
|---------9-------9-8-7-------|-----------------------------------|
|-----------------------10-7\-|-----------------------------------|


|-----------------------------------|
|-----------------------------------|
|-16b18-14----14-16b18-14--------14-|
|----------16-------------16--16----|
|-----------------------------------|
|-----------------------------------|

Grad. release
|---------------------------------------|------------------------------|
|-------17-------17------------17-------|------------------------------|
|-16b18----16b18----16b18---------16b18-|-(16)-\1/-\1/-\1/-\1/-\1/-\1/-|
|---------------------------------------|------------------------------|
|---------------------------------------|------accentuate-w/bar--------|
|---------------------------------------|------------------------------|


|-21p17----21p17----21p17----21p17----21p17----21p17----|
|-------17-------17-------17-------17-------17-------17-|
|-------------------------------------------------------|
|-------------------------------------------------------|
|-------------------------------------------------------|
|-------------------------------------------------------|


|-22b24--22-22-22b24--22-22-22b24-~-~-(22)\-|
|-------------------------------------------|
|-------------------------------------------|
|-------------------------------------------|
|-------------------------------------------|
|-------------------------------------------|


|-----------------------------|-------------------------|
|-10p8p7----------------------|-------------------------|
|--------9--9p7---------------|-------------------------|
|---------------9--9p7-5--7b9-|-5-----------------------|
|-----------------------------|----7---(7)-~-~-~----5h7-|
|-----------------------------|------------w/bar--------|


|-----------------------|-----------------------------|
|-----------------------|-----------------------------|
|-----------------------|-----------------------------|
|-----------------------|-----------------------------|
|-4---(4)-~-~-~-~-----0-|--2--\1/-\1/-\1/-\1/-\1/-\1/-|
|-----------------------|-----------------------------|
w/ bar

---|

Dj.Vesna
04.11.2012, 10:30
-nastavak(2)


Enter Sandman


(Repeat Rhythm Fill 2 twice)
(Repeat Bridge)
(Repeat Chorus Fill)
(Repeat Intro 8 times)

Now I lay me down to sleep
Pray the lord my soul to keep
If I die before I wake
Pray the lord my soul to take

(Repeat Bridge, 1st measure only, 6 times)

Hush little baby, don't say a word
And never mind that noise you heard
It's just the beasts under your bed,
In your closet, in your head

(Repeat Chorus Fill twice)

Exit light
Enter night
Take my hand
Off to never-never land

(Repeat Rhythm Fill 2 twice)

BOOM!

(Repeat Rhythm Fill 2 4 times)


Outro:
======

E5 F5 E5 F5 E5

PM PM--| P PM---------------------| P

1|---------------------------------------------------------------------------
2|---------------------------------------------------------------------------
3|---------------------------------------------------------------------------
4|---------------------------------------------------------------------------
5|--2-------7-------------------3\2-----------7------------------3\2---------
6|--0---0-------6---5---0---0---1\0---0---0------6---5---0---0---1\0---------

|-------------3x-------------|



F5 E5

PM--| PM------| P PM--------------------------|
1|---------------------------------------------------------------------------
2|---------------------------------------------------------------------------
3|---------------------------------------------------------------------------
4|---------------------------------------------------------------------------
5|----------7------------------3\2-------------7-----------------------------
6|--0---0------6---0---0---0---1\0-----0---0-------0---0---0---0---0---------

|------------4x--------------| |------------4x-------------|



PM------------------------------|

1|---------------------------------------------------------------------------
2|---------------------------------------------------------------------------
3|---------------------------------------------------------------------------
4|---------------------------------------------------------------------------
5|---------------------------------------------------------------------------
6|--0---0---0---0---0---0---0---0---0----------------------------------------

|--- Repeat while fading out ---|